Song name
# A B C D E F G H I J K L M N O P Q R S T U V W X Y Z

Misc Television - Rugrats Theme tab

|-0--1--3--5--7--8--7--3--5--3--1----0--1--3--5--7--8--10--3--5--3--1--|
|-2--3--5--6--8--10-6--5--6--5--3----2--3--5--6--8--10-12--5--6--5--3--|
|----------------------------------------------------------------------|
|----------------------------------------------------------------------|
|----------------------------------------------------------------------|
|----------------------------------------------------------------------|

|-0--1--3--5--7--8--7--3--5--3--1----0--1--3--5--7--8--10--8--7--5--3--1-|
|-2--3--5--6--8--10-6--5--6--5--3----2--3--5--6--8--10-12--10-6--6--5--3-|
|------------------------------------------------------------------------|
|------------------------------------------------------------------------|
|------------------------------------------------------------------------|
|------------------------------------------------------------------------|

|-0--1--3--5--7--8--7--3--5--3--1----0--1--3--5--7--8--/-10--3--5--3--1--|
|-2--3--5--6--8--10-6--5--6--5--3----2--3--5--6--8--10-/-12--5--6--5--3--|
|------------------------------------------------------------------------|
|------------------------------------------------------------------------|
|------------------------------------------------------------------------|
|------------------------------------------------------------------------|


|-0--1--3--5--7--8--7--3--5--3--1----0--1--3--5--7--8--10--8--7--5--3--1-|
|-2--3--5--6--8--10-6--5--6--5--3----2--3--5--6--8--10-12--10-6--6--5--3-|
|------------------------------------------------------------------------|
|------------------------------------------------------------------------|
|------------------------------------------------------------------------|
|------------------------------------------------------------------------|

|--0-----7-8---|
|--1-----------|
|--0-----------|
|--2-----------|
|--3-----------|
|--x-----------|


Tap to rate this tab
 
# A B C D E F G H I J K L M N O P Q R S T U V W X Y Z