Song name
# A B C D E F G H I J K L M N O P Q R S T U V W X Y Z

Misc Television - Doctor Who Theme tab

  E               B            G     E               B
e----------------------------------------------------------------|
B----------------------------------------------------------------|
G----------------------------------------------------------------|
D----------------------------------------------------------------|
A-7-7-7-7-7-7-7-7--------------10-10-7-7-7-7-7-7-7-7-------------|
E-----------------7-7-7-7-7-7------------------------7-7-7-7-7---|

   E B      E B     G B          E B E B
e8-7 10-10-7---7-3----------------0- -0--|
B----0--------0-----0-3-1-0-3-4- 0- -0----|
G-----------------------------------------|
D-----------------------------------------|
A-----------------------------------------|
E-----------------------------------------|

    E B      C     G   B
e-8-7----3-7-5-3-2-3--------|
B-----0----------------0----|
G---------------------------|
D---------------------------|
A---------------------------|
E---------------------------|

    C          G   C       G    B        EBE B
e10-12-10-8-10-7---12-10-8-10-7-5----3-2-0-0----|
B-----------------------------------------0- 0--|
G-----------------------------------------------|
D-----------------------------------------------|
A-----------------------------------------------|
E-----------------------------------------------|

   E B     C     G   B E B
e8-7-  3-7-5-3-2-3--- -0---------|
B----0---------------0---0-------|
G--------------------------------|
D--------------------------------|
A--------------------------------|
E--------------------------------|
Tap to rate this tab
# A B C D E F G H I J K L M N O P Q R S T U V W X Y Z