Song name
# A B C D E F G H I J K L M N O P Q R S T U V W X Y Z

Misc Television - My Name Is Earl Theme tab

-------------------------------------------------------------------------------
			    My Name Is Earl Theme
-------------------------------------------------------------------------------
Tabbed by:gillet92
Email:gillet92@hotmail.com

Tuning:DADGBE

                This is the riff played while the credits are rolling,enjoy!
                
e|---------------------------------------------------------------------------|
B|---------------------------------------------------------------------------|
G|--------6/8----------------6/8---------------------------------------------|
D|---0--0-6/8--0-7-6-5--0--0-6/8---------------------------------------------|
A|---0--0-4/6--0-7-6-5--0--0-4/8---------------------------------------------|
D|---0--0------0-7-6-5--0--0-------------------------------------------------|
Tap to rate this tab
# A B C D E F G H I J K L M N O P Q R S T U V W X Y Z