Song name
# A B C D E F G H I J K L M N O P Q R S T U V W X Y Z

Misc Television - Vonage Theme tab

E|-------|-------|-------|-------|  
B|-------|-------|-------|-------|  
G|-------|-------|-------|-------|  
D|-------|-------|-------|-------|  
A|------4|5-4----|------4|5-4----|  
E|0-4-7--|----7-4|0-4-7--|----7-4|  

E|-------|-------|-------|-------|
B|-------|-------|-------|-------|
G|-------|-------|-------|-------|
D|------4|5-4----|-------|-------|
A|0-4-7--|----7-4|------4|5-4----|
E|-------|-------|0-4-7--|----7-4|

E|-------|-------|-------|-------|
B|-------|-------|-------|-------|
G|-------|-------|-------|-------|
D|-------|----0-1|----0-1|2------|
A|----0-1|2-4----|2-4----|--4-2--|
E|2-4----|-------|-------|------4|

E|-------|-------|-------|-------|
B|-------|-------|-------|-------|
G|-------|-------|-------|-------|
D|------4|5-4----|-------|-------|
A|0-4-7--|----7-4|------4|5-4----|
E|-------|-------|0-4-7--|----7-4|

E|-------|-------|-------|-------|
B|-------|-------|-------|-------|
G|-------|-------|-------|-------|
D|-------|----0-1|----0-1|2------|
A|----0-1|2-4----|2-4----|--4-2--|
E|2-4----|-------|-------|------4|

E|-------|-------|-------|-------|
B|-------|-------|-------|-------|
G|-------|-------|-------|-------|
D|-------|-------|-------|-------|
A|-------|-------|5-3-2-0|5-3-2-0|
E|5-3-2-0|5-3-2-0|-------|-------|

E|-------|-------|-------|-------|
B|-------|-------|-------|-------|
G|-------|-------|-------|-------|
D|-------|-------|-------|-------|
A|-------|-------|------4|7-4----|
E|5-3-2-0|5-3-2-0|0-4-7--|----7-4|

E|-------|-------|-------|-------|
B|-------|-------|-------|-------|
G|-------|-------|-------|-------|
D|------4|5-4----|-------|-------|
A|0-4-7--|----7-4|------4|7-4----|
E|-------|-------|0-4-7--|----7-4|

E|-------|-------|-------|-------|
B|-------|-------|-------|-------|
G|-------|-------|-------|-------|
D|-------|----0-1|----0-1|2------|
A|----0-1|2-4----|2-4----|--4-2--|
E|2-4----|-------|-------|------4|

E|-|
B|-|
G|-|
D|-|
A|-|
E|0|
Tap to rate this tab
 
# A B C D E F G H I J K L M N O P Q R S T U V W X Y Z