Song name
# A B C D E F G H I J K L M N O P Q R S T U V W X Y Z

Misc Television - Blackadder Theme tab

Blackadder Theme (later series version)

Tab by B.Spencer

Verse

   G		 A  Am           Dsus4 D

e------------------------------------------|
B------------------------------------------|
G-------------0--2---1---1-0---0-0---------|
D--0---0---0-----------2-----2---------4---|  x 2
A----0---0---------------------------------|
E------------------------------------------|


Chorus

   G	       D    C       D

e--------------------------------|
B--3-3-0---3-3----3-1-0-----3----|
G--------------2--------2-0------|
D--------------------------------|
A--------------------------------|
E--------------------------------|

   G	       D    C       G

e--------------------------------|
B--3-3-0---3-3--------0-1--------|
G--------------0--0-2-----2-0----|
D--------------------------------|
A--------------------------------|
E--------------------------------|
Tap to rate this tab
 
# A B C D E F G H I J K L M N O P Q R S T U V W X Y Z