Song name
# A B C D E F G H I J K L M N O P Q R S T U V W X Y Z

Misc Television - Dallas Theme tab

Here's a version of the dallas theme I found somewhere on the net and I thought it 
belongs on this site.

e---0--0-----7--0--4--2--4--0---0--9--7--4--5--7--0-0--9--7--4--5--7--2--4--0-|
b---------0-------------------0-----------------------------------------------|
g-----------------------------------------------------------------------------|
d-----------------------------------------------------------------------------|
a-----------------------------------------------------------------------------|
E-----------------------------------------------------------------------------|

e-----4--4-5-2--0-0----------------------------------------------------------|
b--0-------------------------------------------------------------------------|
g----------------------------------------------------------------------------|
d----------------------------------------------------------------------------|
a----------------------------------------------------------------------------|
E----------------------------------------------------------------------------|

I think it sounds exactly like it. Rate it for me and tell me what you think!

_____________________________________________________________________________
////////////////////////////////////\\\\\\\\\\\\\\\\\\\\\\\\\\\\\\\\\\\\\\\\\
(((((((((((((((((((((((((((((((((((()))))))))))))))))))))))))))))))))))))))))
\\\\\\\\\\\\\\\\\\\\\\\\\\\\\\\\\\\\/////////////////////////////////////////
Tap to rate this tab
# A B C D E F G H I J K L M N O P Q R S T U V W X Y Z