Song name
# A B C D E F G H I J K L M N O P Q R S T U V W X Y Z

Misc Television - The Office Theme tab

Piano intro:
      D7                       C
e------------------------0---0---0-0-0-----------|
B--3---3--3---3---3--3---1---1---1-1-1-3-1-3-----|
G--4-0-4--4-0-4---4--4-0---0---0-------4-2-4-----|
D---------------4--------------------------------|   Repeat
A------------------------------------------------|
E------------------------------------------------|

Guitar Part
(not exact number of strums)

   G   B E  C   B   A   G
e--------------------------|
B--------------------------|
G-----4-----5--4-4-2-2-----|
D--5--4--2--5--4-4-2-2--5--|
A--5--2--2--3--2-2-0-0--5--|
E--3-----0--------------3--|

Solo

e-------------------------------|-----------------------------------|
B----8-7h8p7---5----------------|----8-7-8-10---5-------------------|
G------------7----5-5-5---------|-------------7---5-5-5-------------|
D--5---------------------9-7-9--|--5--------------------9-7-9---5---|
A-------------------------------|-----------------------------------|
E-------------------------------|-----------------------------------|


Outro
(Arpeggiated C chord on piano)
e----0--3--0--3/8~~~~~|
B--1------------------|
G---------------------|
D---------------------|
A---------------------|
E---------------------|

Order:
Piano intro (x2)
Guitar part
Solo
Outro

Legend (key)

/ - Slide
h - Hammer-on
p - Pulloff
~ - Hold note
Tap to rate this tab
 
# A B C D E F G H I J K L M N O P Q R S T U V W X Y Z