Song name
# A B C D E F G H I J K L M N O P Q R S T U V W X Y Z

Misc Television - The Munsters Theme tab

This may not be correct to the actual way the theme is played but this is how i have 
played it and EVERYONE knows exactly what it is instantly.
Hope you enjoy. any questions you can find me on youtube at www.youtube.com/bajungadustin


Munsters Theme Song
Written By Jack Marshall
Standard Tuning
Beginner Song
Tabbed by BajungaDustin

P.M = Palm Mute


P.M.~~~~~~~~~~~~~~~~~~~~~~~~~~~~~
e----------------------------------|
B----------------------------------|
G----------------------------------|
D----------------------------------|
A----------------------------------|
E--0-0-2-3-0-0-2-3-0-0-2-3-0-0-2-3-|


                                     P.M.~~~~~~~~
e------------------------------------------------|
B------------------------------------------------|
G------------------------------------------------|
D------------2-----------------------------------|
A--------1-2----3-2-0----0-2--0------------------|
E-0--2-3---------------3--------3-2--3-3-2-2-1-1-|


P.M.~~~~~~~~~~~~~~~~~~~~~~~~~~~~~~
e----------------------------------|
B----------------------------------|
G----------------------------------|
D----------------------------------|
A--0-0-2-3-0-0-2-3-0-0-2-3-0-0-2-3-|
E----------------------------------|


e------------------------------------------------|
B------------------------------------------------|
G------------2-----------------------------------|
D--------1-2----3-2-0----0-2--0------------------|
A-0--2-3---------------3--------3-2--3-3-2-2-1-1-|
E------------------------------------------------|

Back to top
Tap to rate this tab
 
# A B C D E F G H I J K L M N O P Q R S T U V W X Y Z