Song name
# A B C D E F G H I J K L M N O P Q R S T U V W X Y Z

Misc Television - Fraggle Rock Theme tab

INTRO:

    git 1
E |-----------------------|-----------------------|
B |-----------------------|-----------------------|
G |-----------------------|-----------------------|
D |-----------------------|-----------------------|
A |--3----3----3----1--2--|--3----3----3----1--2--|
E |-----------------------|-----------------------|


    
E |-----------------------|-----------------------|
B |-----------------------|-----------------------|
G |-----------------------|-----------------------|
D |-----------------------|-----------------------|
A |--3----3----3----1--2--|--3----3----3----5--6--|
E |-----------------------|-----------------------|
  | 



Part A:
 
E |---------------------------|-----------------------|
B |---------------------------|--6--6--6--4--6--------|
G |--------5-----8--7---5-----|-----------------------|
D |--5--7-----7-------------7-|--7--7--7--5--7--------|
A |---------------------------|-----------------------|
E |---------------------------|-----------------------|


E |----------------------------|-----------------------|
B |--------7----10--7----------|--8--8--10--11--12-----|
G |--7--9-----7---------9---7--|-----------------------|
D |----------------------------|--9--9--10--11--12-----|
A |----------------------------|-----------------------|
E |----------------------------|-----------------------|



Part B:

E |---------------------------|-----------------------------|
B |---------------------------|-----------------------------|
G |---------------------------|--------------9--7-----------|
D |-10--10-10--12--7----X--X--|--9--9--7-----------10--7----|
A |---------------------------|----------10--------------10-|
E |---------------------------|-----------------------------|
  |



E |---------------------------|-----------------------------|
B |---------------------------|-----------------------------|
G |---------------------------|-----------------------------|
D |-10--10-10--12--7----X--X--|--9--9--7----9---10----------|
A |---------------------------|-----------------------------|
E |---------------------------|-----------------------------|
  |

 

E |---------------------------|-----------------------------|
B |---------------------------|-----------------------------|
G |---------------------------|--------------9--7-----------|
D |-10-----10--X---7----X--X--|--9--9--7----10-----10--7----|
A |-10--10-10--X---8----X--X--|-10-------10--------------10-|
E |---------------------------|-----------------------------|
  |

E |---------------------------|-----------------------------|
B |---------------------------|-----------------------------|
G |---------------------------|-----------------------------|
D |-10-----10--X---7----X--X--|--9--9--7----9---10----------|
A |-10--10-10--X---8----X--X--|-10-10------------7----------|
E |---------------------------|-----------------------------|
  |

Part A:
 
E |---------------------------|-----------------------|
B |---------------------------|--6--6--6--4--6--------|
G |--------5-----8--7---5-----|-----------------------|
D |--5--7-----7-------------7-|--7--7--7--5--7--------|
A |---------------------------|-----------------------|
E |---------------------------|-----------------------|
  | 



E |----------------------------|-----------------------|
B |--------7----10--7----------|--8--8--10--11--12-----|
G |--7--9-----7---------9---7--|-----------------------|
D |----------------------------|--9--9--10--11--12-----|
A |----------------------------|-----------------------|
E |----------------------------|-----------------------|
  | 



Part B:

E |---------------------------|-------------12-10-----------|
B |-13-----13-----10----X--X--|-12-12-10-----------13-10----|
G |---------------10----X--X--|----------10-12-----------12-|
D |-14--14-14--X--------------|-12--------------------------|
A |---------------------------|-----------------------------|
E |---------------------------|-----------------------------|
  |



E |---------------------------|-----------------------------|
B |-13-----13-----10----X--X--|-12-12-10---12---13----------|
G |---------------10----X--X--|-----------------------------|
D |-14--14-14--X--------------|-12-12-----------10----------|
A |---------------------------|-----------------------------|
E |---------------------------|-----------------------------|
  |


E |---------------------------|-----------------------------|
B |---------------------------|-----------------------------|
G |---------------------------|--------------9--7-----------|
D |-10-----10--X---7----X--X--|--9--9--7----10-----10--7----|
A |-10--10-10--X---8----X--X--|-10-------10--------------10-|
E |---------------------------|-----------------------------|
  |



E |---------------------------|-----------------------------|
B |---------------------------|-----------------------------|
G |---------------------------|-----------------------------|
D |-10-----10--X---7----X--X--|--9--9--7----9---10----------|
A |-10--10-10--X---8----X--X--|-10-10------------7----------|
E |---------------------------|-----------------------------|
  |



E |-----------------------------|
B |-----------------------------|
G |-----------------------------|
D |--9--9--7----9---10----------|
A |-10-10--8---10---------------|
E |------------------8----------|
  |
Tap to rate this tab
# A B C D E F G H I J K L M N O P Q R S T U V W X Y Z