Song name
# A B C D E F G H I J K L M N O P Q R S T U V W X Y Z

Misc Television - Rugrats Theme tab

-------------------------------------------------------------------------------
			     Rugrats Theme
-------------------------------------------------------------------------------
Tabbed by: Connor Smith
Email: chelsea977@hotmail.com

Tuning:

e|-0-1-3-5--7-8--7--3-5-3-1--|--0-1-3-5--7-8--10--7-8--7-5-----|
B|-1-3-5-6--8-10-8--5-6-5-3--|--1-3-5-6--8-10-12--8-10-8-6-----|
G|---------------------------|---------------------------------| x 2
D|---------------------------|---------------------------------|
A|---------------------------|---------------------------------|
E|---------------------------|---------------------------------|

Then a fairly slow slide from the 13th fret down to the first then either:

e|-0-0~~~-|      |-0-0~~~-|
B|-1-1~~~-|      |-1-1~~~-|
G|--------|  or  |-0-0~~~-|
D|--------|      |-2-2~~~-|
A|--------|      |-3-3~~~-|
E|--------|      |--------|
Tap to rate this tab
# A B C D E F G H I J K L M N O P Q R S T U V W X Y Z