Song name
# A B C D E F G H I J K L M N O P Q R S T U V W X Y Z

Misc Television - Mtv Cockroach Song tab

Standard Tuning (E A D G B e)   Fm Key

The Commercial in the supermarket when the guy kills a cockroach and then the giant 
starts to dance.


    Fm                  D#            C#                  Cmaj7

|-------16--20--16--------------18------------16-------------13--15--|
|---18--------------18--16--20--------14--18------18--14--12---------|
|--------------------------------------------------------------------|
|--------------------------------------------------------------------|
|--------------------------------------------------------------------|
|--------------------------------------------------------------------|


 Fm                  D#            C#                  Cmaj7

|----16--20--16--------------18------------16------------------------------|
|18--------------18--16--20--------14--18------18--14--12--12-12--12-12-12-|
|--------------------------------------------------------------------------|
|--------------------------------------------------------------------------|
|--------------------------------------------------------------------------|
|--------------------------------------------------------------------------|
Tap to rate this tab
 
# A B C D E F G H I J K L M N O P Q R S T U V W X Y Z