Song name
# A B C D E F G H I J K L M N O P Q R S T U V W X Y Z

Misc Television - Home Improvement Theme tab

Hello there Tim. This is the Home Improvement theme song for the first 3 seasons.

Tim Allen solo part 1
e--U----|
b--H----|
G--H----|
D--H----|
A--H----|
E--?----|

Flute part 1

e--7-6h7---7-7--7--5-----------5-4-----------------------|
b---------------------8--5--8----------------------------|
G--------------------------------------------------------|
D--------------------------------------------------------|
A--------------------------------------------------------|
E--------------------------------------------------------|

Guitar part 1

e------------------------------------------------------------8----------|
b-------------9----------------------------------------9-----9----------|
G--10---10-10-------8-10----10-10-8-------8-10---10-10-------------8-10-|
D----------------10--------------------10-------------------------------|
A-----------------------------------------------------------------------|
E-----------------------------------------------------------------------|

Flute part 2

e--13-11--------------------------------------------------|
b--------13-11-9------9-----------------------------------|
G----------------10-8---10--------------------------------|
D---------------------------------------------------------|
A---------------------------------------------------------|
E---------------------------------------------------------|

Guitar part 2

e---------------------------------------------------------|
b--8-8--7-7--6-6--5-5-------------------------------------|
G--8-8--7-7--6-6--5-5-----8--9--10------------------------|
D--7-7--6-6--5-5--4-4-----8--9--10------------------------|
A--8-8--7-7--6-6--5-5-----6--7--8-------------------------|
E---------------------------------------------------------|

Tim Allen solo part 2
e--U----|
b--H----|
G--H----|
D--H----|
A--H----|
E--?----|

aaaaaaand commercial.
Tap to rate this tab
# A B C D E F G H I J K L M N O P Q R S T U V W X Y Z