Misc Television - Rugrats Theme tab

Rugrats Theme Tune by Tetris11 (Feel free to adapt and change as you please).

     E  E  E  E  S E  S  E  E     E  E  E   E  S E  S E  E     E  E  E  E  S E  S  E  E   
E||-----------5----7-----8-----|--7-------------------------|-----------5----7-----8-----|
B||--5--6--8--6----8----10-----|--8-----8--10----8----6-----|--5--6--8--6----8----10-----|
G||--5--7--9-------------------|--------9--10----9----7-----|--5--7--9-------------------|
D||----------------------------|----------------------------|----------------------------|
A||----------------------------|----------------------------|----------------------------|
E||----------------------------|----------------------------|----------------------------|


Play 1st,3rd time round		        Play 2nd,4th time round
   E  E  E   E  S E  S E  E        E.   E   E   E.  E  E     
--10-----7---8----7----5------||--10----8---7---5----------||
--12-----8--10----8----6------||--12---10---8---6---8--6---||
-----------------------------*||--------------------9--7--*||
-----------------------------*||--------------------------*||
------------------------------||---------------------------||
------------------------------||---------------------------||


Legend					
---------------
E - 1/8th      E. - 3/8ths          * -
S - 1/16th	                         * - Repeat
Tap to rate this tab
 
# A B C D E F G H I J K L M N O P Q R S T U V W X Y Z