Misc Television - Doctor Who Theme tab

Composed by: Ron Grainer
Tabbed by: Not So Great Juja (Tom Horses)

You'll have to listen to the song for the timing.

e|------------------------------|
B|-0-/13-12~------15-\3---------|
G|------------------------------|
D|---------------------/9~------|
A|------------------------------|
E|------------------------------|


e|--------------------------------------------------|
B|-/12----------------------------------------------|
G|-----12-------------------------------------------|
D|--------9--9h12--10-9--10p9--7/9--10p9-10p9-10p9--|
A|--------------------------------------------------|
E|--------------------------------------------------|


e|-------------------------------------|
B|-/12~----------12--10----------------|
G|-----------12-----------12-11-12-----|
D|-------------------------------------|
A|-------------------------------------|
E|-------------------------------------|


e|-10--12---10--10-----12---10--10----------------------|
B|------------13--------------13--------12-10-----------|
G|------------------12--------------12-----------12-11--|
D|------------------------------------------------------|
A|------------------------------------------------------|
E|------------------------------------------------------|


e|---------------------|
B|-0-/13-12~-----------|
G|---------------------|
D|---------------------|x4
A|---------------------|
E|---------------------|
Tap to rate this tab
 
# A B C D E F G H I J K L M N O P Q R S T U V W X Y Z