Song name
# A B C D E F G H I J K L M N O P Q R S T U V W X Y Z

Misc Television - How I Met Your Mother Theme tab

e --|-------------------|-------------------|--5----x--5--4----x--4--|--2----x--2-------------|
B --|-------------------|-------------------|--5----x--5--5----x--5--|--2----x--2-------------|
G --|--4-4-4-4-4-4-4-4--|--1-1-1-1-1-1-1-1--|--6----x--6--6----x--6--|--2----x--2--1----x--1--|
D --|--5-5-5-5-5-5-5-5--|--2-2-2-2-2-2-2-2--|--7----x--7--6----x--6--|--4----x--4--2----x--2--|
A --|--5-5-5-5-5-5-5-5--|--2-2-2-2-2-2-2-2--|--7----x--7--4----x--6--|--4----x--4--2----x--2--|
E --|--3-3-3-3-3-3-3-3--|--0-0-0-0-0-0-0-0--|--5----x--5-------------|--2----x--2--0----x--0--|


e --|------------------------|------------------------|-------------|----------------------4--|
B --|--7----x--7--5----x--5--|--3----x--3-------------|-------------|--------5-----------5----|
G --|--7----x--7--6----x--6--|--4----x--4--4----x--4--|--6----------|-----6-----6-----6-------|
D --|--7----x--7--6----x--6--|--4----x--4--5----x--5--|--7----------|--7-----------7----------|
A --|--5----x--5--4----x--4--|--2----x--2--5----x--5--|--7----------|-------------------------|
E --|------------------------|-------------3----x--3--|--5----------|-------------------------|


 - The last part can be played as "let ring"

 - I know the original tab is different from this but It may help you to make the correct one.
Tap to rate this tab
 
# A B C D E F G H I J K L M N O P Q R S T U V W X Y Z