Song name
# A B C D E F G H I J K L M N O P Q R S T U V W X Y Z

Misc Television - Wwe - Broken Dreams Drew Mcintyre Theme tab

Broken Dreams   

Drop-D (D# A# D# G# B# E#)

Intro Guitar Riff

What's that metronome I hear, perhaps the end is drawing near
e|--------------------------------------------------|
B|--------------------------------------------------|
G|-------------------0-----------------------0------|  
D|-2-----------------------2------------------------|  
A|------2-----3-----------------2------3------------|
D|---2-----2-----2-----------2-----2------2---------|

You never hear the shot that takes you down
e|--------------------------------------------------|
B|--------------------------------------------------|
G|-------------------0-----------------------0------|  
D|-2-----------------------2------------------------|  
A|------2-----3-----------------2------3------------|
D|---2-----2-----2-----------2-----2------2---------|

Out of time, so say goodbye
e|--------------------------------------------------|
B|--------------------------------------------------|
G|--------------------------------------------------|  
D|--0-0-0-0-0---------2-2-2-2-2---------------------|  
A|--0-0-0-0-0----x----2-2-2-2-2---------------------|
D|--0-0-0-0-0----x----2-2-2-2-2---------------------|

What is yours, now it's mine
e|--------------------------------------------------|
B|--------------------------------------------------|
G|--------------------------------------------------|  
D|--0-0-0-0-0---------2-2-2-2-2---------------------|  
A|--0-0-0-0-0----x----2-2-2-2-2---------------------|
D|--0-0-0-0-0----x----2-2-2-2-2---------------------|


Now your dreams a memory, and seems more true from far away
Just like smoke that fades and makes no sound
.
Out of time, so say goodbye
What is yours, now it's mine
And I dream broken dreams, I make them come true
I make them for you
.
Bad Dreams come true, I make them for you (x4)
.
Out of time, so say goodbye
What is yours, now it's mine
And I dream broken dreams, I make them come true
I make them for you
Tap to rate this tab
 
# A B C D E F G H I J K L M N O P Q R S T U V W X Y Z