Song name
# A B C D E F G H I J K L M N O P Q R S T U V W X Y Z

Misc Television - Dreamworks Theme tab

 ||  &    1   &  a  2   &  a  3  e  &  a  4  e  &  a  | 1  e  &   |
E||-----|---------------------------------------------|-----------|
B||-----|--------12--------13-12----15-12----12-13----|-12-13-15--|
G||-----|-12--12----14--14----------------14-------14-|-----------|
D||--12-|------------------------12-------------------|-----------|
A||-----|---------------------------------------------|-----------|
E||-----|---------------------------------------------|-----------|


  &    1    a  2  e  &    3   ||
-----|------------------------||
-----|-15---12----12-13---12--||
-----|---------14-------------||
--12-|------------------------||
-----|------------------------||
-----|------------------------||
Tap to rate this tab
 
# A B C D E F G H I J K L M N O P Q R S T U V W X Y Z