Misc Television - Doctor Who Theme tab

Doctor Who Theme 2010

Guitar 1 - D A D G B E
Guitar 2 - D A D G B E




4/4
  Gtr I
  |-3-|    |-3-|      |-3-|    |-3-|
  E E E Q  E E E Q    E E E Q  E E E Q
|-------------------|-------------------|
|-------------------|-------------------|
|-------------------|-------------------|
|-------------------|-------------------|
|-5-5-5-5--5-5-5-5--|-5-5-5-5--3-3-3-3--|
|-0-0-0-0--0-0-0-0--|-0-0-0-0--3-3-3-3--|
|
| Gtr II
| W                   H        H
|-------------------|-------------------|
|-------------------|-------------------|
|-------------------|-------------------|
|-------------------|----------6h=======|
|-5h================|=8-----------------|
|-------------------|-------------------|


  |-3-|    |-3-|       |-3--|    |-3-|
  E E E Q  E E E Q     E  E E Q  E E E Q
|-------------------|---------------------|
|-------------------|---------------------|
|-------------------|---------------------|
|-------------------|---------------------|
|-5-5-5-5--5-5-5-5--|--5--5-5-5--3-3-3-3--|
|-0-0-0-0--0-0-0-0--|--0--0-0-0--3-3-3-3--|
|
| W                   +W
|-------------------|---------------------|
|-------------------|---------------------|
|-------------------|---------------------|
|-7-----------------|-(7)-----------------|
|-------------------|---------------------|
|-------------------|---------------------|


  |-3-|    |-3-|      |-3-|    |-3-|
  E E E Q  E E E Q    E E E Q  E E E Q
|-------------------|-------------------|
|-------------------|-------------------|
|-------------------|-------------------|
|-------------------|-------------------|
|-5-5-5-5--5-5-5-5--|-5-5-5-5--3-3-3-3--|
|-0-0-0-0--0-0-0-0--|-0-0-0-0--3-3-3-3--|
|
| W                   H        H
|-------------------|-------------------|
|-------------------|-------------------|
|-------------------|-------------------|
|-------------------|-6h=======9--------|
|-8-----------------|-------------------|
|-------------------|-------------------|


  |----3----|      |-3--|        |-3--|    |-3-|
  E  E      E Q    E  E E Q      E  E E Q  E E E Q
|----------------------------|----------------------|
|----------------------------|----------------------|
|----------------------------|----------------------|
|----------------------------|----------------------|
|-5--5------5-5----5--5-5-5--|---5--5-5-5--3-3-3-3--|
|-0--0------0-0----0--0-0-0--|---0--0-0-0--3-3-3-3--|
|
| S  S  +E        +H.           +W
|----------------------------|----------------------|
|----------------------------|----------------------|
|----------------------------|----------------------|
|-9h10-(10)------(10)--------|-(10)-----------------|
|----------------------------|----------------------|
|----------------------------|----------------------|


  |-3-|      |-3-|        |-3--|    |-3-|
  E E E  Q   E E E Q      E  E E Q  E E E Q
|---------------------|----------------------|
|---------------------|----------------------|
|---------------------|----------------------|
|---------------------|----------------------|
|-5-5-5--5---5-5-5-5--|---7--7-7-7--7-7-7-7--|
|-0-0-0--0---0-0-0-0--|---7--7-7-7--7-7-7-7--|
|
| Q      Q   H           +W
|---------------------|----------------------|
|-------11p=10--------|-(10)-----------------|
|-7-------------------|----------------------|
|---------------------|----------------------|
|---------------------|----------------------|
|---------------------|----------------------|


  |-3-|     |-3-|       |--3---|     |-3-|
  E E E Q   E E E Q     E  E   E  Q  E E E Q
|--------------------|-------------------------|
|--------------------|-------------------------|
|--------------------|-------------------------|
|--------------------|-------------------------|
|-5-5-5-5---5-5-5-5--|--7--7---7--7--7-7-7-7---|
|-0-0-0-0---0-0-0-0--|--7--7---7--7--7-7-7-7---|
|
| Q     Q   H           E  E  +H.
|-8------------------|-------------------------|
|-------8h=10h=======|=11p10-(10)--------------|
|--------------------|-------------------------|
|--------------------|-------------------------|
|--------------------|-------------------------|
|--------------------|-------------------------|


   |-3-|    |-3-|          |-3--|      |-3--|
   E E E Q  E E E Q        E  E E Q    E  E E Q
|----------------------|-------------------------|
|----------------------|-------------------------|
|----------------------|-------------------------|
|----------------------|-------------------------|
|--5-5-5-5--5-5-5-5----|---7--7-7-7----7--7-7-7--|
|--0-0-0-0--0-0-0-0----|---7--7-7-7----7--7-7-7--|
|
|  Q     Q  Q     E  E    +Q      E E +H
|----------------------|-------------------------|
|-10p====6-------------|-------------------------|
|-----------7-----9s10-|-(10)p====9p7-(7)--------|
|----------------------|-------------------------|
|----------------------|-------------------------|
|----------------------|-------------------------|


  |-3-|    |-3-|        |-3-|       |-3-|
  E E E Q  E E E  Q     E E E Q     E E E Q
|---------------------|-----------------------|
|---------------------|-----------------------|
|---------------------|-----------------------|
|---------------------|-----------------------|
|-5-5-5-5--5-5-5--5---|-7-7-7-7-----7-7-7-7---|
|-0-0-0-0--0-0-0--0---|-7-7-7-7-----7-7-7-7---|
|
| H          E E +Q     E   E   +H.
|---------------------|-----------------------|
|---------------------|-----------------------|
|-7p=========5h7-(7)--|-8p==7---(7)-----------|
|---------------------|-----------------------|
|---------------------|-----------------------|
|---------------------|-----------------------|


  |-3-|      |-3-|        |-3--|    |-3-|
  E E E  Q   E E E Q      E  E E Q  E E E Q
|---------------------|----------------------|
|---------------------|----------------------|
|---------------------|----------------------|
|---------------------|----------------------|
|-5-5-5--5---5-5-5-5--|---7--7-7-7--7-7-7-7--|
|-0-0-0--0---0-0-0-0--|---7--7-7-7--7-7-7-7--|
|
| Q      Q   H           +W
|---------------------|----------------------|
|-------11p=10--------|-(10)-----------------|
|-7-------------------|----------------------|
|---------------------|----------------------|
|---------------------|----------------------|
|---------------------|----------------------|
Tap to rate this tab
 
# A B C D E F G H I J K L M N O P Q R S T U V W X Y Z