Misc Television - Munsters Theme tab

The Munsters theme tune- as played by me.
Standard tuning

E----------------------------------------------------------------------|
B--------------------------------5--1-0----0---------------------------|
G----------------------------4-5--------2----2-0-----------------------|
D------------------------5------------------------4-2-0----------------|
A----1-2-----1-2------/7---7-------------------------------1-2----1-2--|
E-0-------0----------------------------------------------0------0------|


E-----------------------------------------|
B------------5--1-0-----------------------|
G--------4-5--------2--0-2-4--------------|
D----5------------------------------0-1-2-|
A-/7---7----------------------2-2-2-------|
E-----------------------------------------|


E-0-0-0---------------------------------|
B-3-3-3-1-0-1---0-0---------------------|
G-------------2---2--2-2-2-0------------|
D----------------------------4-5-2-4-1--|
A---------------------------------------|
E---------------------------------------|


E-----------------------------------------|
B------------5--1-0-----------------------|
G--------4-5--------2--0-2-4--------------|
D----5------------------------------0-1-2-|
A-/7---7----------------------2-2-2-------|
E-----------------------------------------|
Tap to rate this tab
 
# A B C D E F G H I J K L M N O P Q R S T U V W X Y Z