Song name
# A B C D E F G H I J K L M N O P Q R S T U V W X Y Z

Misc Television - Lykkehjulet Theme tab

Saa er der nostalgi paa programmet! Her er min version af Lykkehjulets kendingsmelodi :)

e|-------------------|------------------------------------------------------|
B|-------------------|------------------------------------------------------|
G|--9p7p6---7--7-6---|------------------------------------------------------|
D|--------9--------9-|-----6-7-9-9-9-7-6---6-7-9-9-9-7-6-----6-7-7-7-6------|
A|-------------------|-7-7---------------7---------------9-9-----------9----|
E|-------------------|------------------------------------------------------|
                             [Riff]                 [Riff]
e|-----------------------------------------------------|--------------------|
B|-----------------------------------------------------|--------------------|
G|-----------------------------------------------------|----9~--------------|
D|-----6-7-7-7-6---9-------6-6-6------------6b7r6------|----9~--------------|
A|---9-----------9---7-7-9-------9-7--7-7-9-------9-7--|----7~--------------|
E|-----------------------------------------------------|----0~--------------|
            [Riff]                  [Riff]

Spil introen og saa riffet saa mange gange du vil (men husk at sove og gaa paa toilettet 
gang imellem) og slut evt. paa E - BANG! :D

Peace.

Bent Burg for president!

Det er mit foerste tab, saa kom endelig med feedback :)

p: pull-off
b: bend
r: return to
~: let ring
Tap to rate this tab
 
# A B C D E F G H I J K L M N O P Q R S T U V W X Y Z