Guitaretab - guitar tabs
Song name
# A B C D E F G H I J K L M N O P Q R S T U V W X Y Z

Misc Television - Wwe - The Miz tab

-------------
The Miz ~ WWE
-------------
Song Name: Reality

Tabbed by: Russcool
(I know, pretty lame name)

Tuning: STANDARD

This is The Miz's old theme song.
It has some pretty kick-ass guitar
solos. I only got the intro, though.

I don't really know if these are sixteenth notes 
or thirty second notes, but the tab is pretty accurate.



     T     T     T     T            T     T     T     T            T     T     T     T
E|------------------------------|------------------------------|------------------------------|
B|---5p2p0-5p2p0-5p2p0-5p2p0----|------------------------------|------------------------------|
G|------------------------------|---6p4p1-6p4p1-6p4p1-6p4p1----|------------------------------|
D|------------------------------|------------------------------|---6p4p2-6p4p2-6p4p2-6p4p2----|
A|------------------------------|------------------------------|------------------------------|
E|------------------------------|------------------------------|------------------------------|
[ Tab from: http://www.guitaretab.com/m/misc-television/248064.html ]
     T     T     T     T            T     T           (Bend 1/2)
E|------------------------------|------------------|---------------|
B|------------------------------|------------------|---------------|
G|------------------------------|------------------|---------------|
D|------------------------------|------------------|---------------|
A|---6p4p2-6p4p2-6p4p2-6p4p2----|------------------|---2-----------|
E|------------------------------|---7p4p2-7p4p2----|---0---2b------|


THEN:

E|----------------------|----------------------|
B|----------------------|----------------------|
G|----------------------|----------------------|
D|---6-6-6-6-6-6-6-6----|---4-4-4-4------------|
A|---4-4-4-4-4-4-4-4----|---2-2-2-2-4-4-4-4----|
E|----------------------|-----------2-2-2-2----|
                       O R
E|----------------------|----------------------|
B|----------------------|----------------------|
G|----------------------|----------------------|
D|---4-4-4-4-4-4-4-4----|---2-2-2-2------------|
A|---2-2-2-2-2-2-2-2----|---0-0-0-0-2-2-2-2----|
E|----------------------|-----------0-0-0-0----|



LEGEND:
 p   Pull-Off
 T   Tap
 b   Bend
Related for Wwe - The Miz tab
Wwe - The Miz chords by Misc Television