Misc Television - Tobuscus Theme tab

Tobuscus Theme Song
Intro
e|--------------------------------|--------------------------------|
B|--------------------------------|--------------------------------|
G|--------------------------------|--------------------------------|
D|-3/5--5-7-----------3p0---------|-3/5---5-7---2-2-2/4------------|
A|-3/5-5------7p5-5-5-----3p0-----|-3/5-5-------3-3-3/5-0----------|
D|-3/5------0---------------------|-3/5-------0---------0----------|

e|--------------------------------|--------------------------------|
B|--------------------------------|--------------------------------|
G|--------------------------------|--------------------------------|
D|-3/5--5-7-----------3p0---------|---------------3-5--------------|
A|-3/5-5------7p5-5-5-----3p0-----|-----------3-5-----3-3h5--------|
D|-3/5------0---------------------|-3/5-0-3-5----------------------|

Solo
e|--------------------------------|----------------------------12--|
B|-15p13----13--------------------|-------15p13----13----13-15-----|
G|-------14----14-12-14-15-14-12--|-14----------14----14-----------|
D|--------------------------------|----12--------------------------|
A|--------------------------------|--------------------------------|
D|--------------------------------|--------------------------------|

e|--------------------------------|--------------------------------|
B|-15-13-15-15p13----13-----------|--------------------------------|
G|----------------14----14-12-14--|-15-14-12-14----15-14-14----12--|
D|--------------------------------|-------------12----------15-----|
A|--------------------------------|--------------------------------|
D|--------------------------------|--------------------------------|

Repeat Intro x1

Tap to rate this tab
 
# A B C D E F G H I J K L M N O P Q R S T U V W X Y Z