Misc Television - Espn College Football Theme tab

-----------------------------------------------------------------------------
			     ESPN College Football Theme
-----------------------------------------------------------------------------
Tabbed by: Mason Hollis


Tuning:

e|--------------------------|-----------5-------|----------------------------|
B|----8------------5--------|----8----------5---|----8------------5----------|
G|-5------5-5---7-----5-----|-5-----5-5-------7-|-5------5-5---7-----5-------|
D|-----------------------5--|-------------------|-----------------------5----|
A|--------------------------|-------------------|----------------------------|
E|--------------------------|-------------------|----------------------------|

e|-----------------6--------5------------------------------------------------|
B|-8-------6------------------------8---6---8--------------------------------|
G|---------------------------------------------------------------------------|
D|---------------------------------------------------------------------------|
A|---------------------------------------------------------------------------|
E|---------------------------------------------------------------------------|
Tap to rate this tab
 
# A B C D E F G H I J K L M N O P Q R S T U V W X Y Z