Song name
# A B C D E F G H I J K L M N O P Q R S T U V W X Y Z

Misc Television - Mr Proper Commercial tab

-------------------------------------------------------------------------------
			     Mr. Proper - Adv
-------------------------------------------------------------------------------

Tabbed By : Splinter
e-mail: splinter@ebanat.com

Tuning:

S    S  S   S  S  S S   E   S  S  S  S  S  S  E      W
e||----------------------------------------------|---------||
B||----------------------------------------------|---------||
G||--------14-14-------14--12-14-12--------------|--17-----||
D||--15-15-------15-15--------------15-14-12-----|--17-----||
A||------------------------------------------15--|--19-----||
E||----------------------------------------------|--20-----||

Duration Legend
---------------
W - whole
E - 8th
S - 16th
Tap to rate this tab
 
# A B C D E F G H I J K L M N O P Q R S T U V W X Y Z