Song name
# A B C D E F G H I J K L M N O P Q R S T U V W X Y Z

Misc Television - King Of The Hill Theme tab

|--------------------------------------------------------------------------|
|--------------------------------------------------------------------------|
|----------------------------------------------2---------------------------|
|------------------2-2-2-2-4--2-22-2-2---2-2-2-2----------2-22-2-2---2-2-2-|
|-2-2-2-22-2-2-2-2-0-0-0-4-2--2-22-2-2-2-2-2-2-0-2-4-2-4--2-22-2-2-2-2-2-2-|
|-0-0-0-00-4-0-0-0------------0-00-0-0-4-0-0-0---4-2-4-2--0-00-0-0-4-0-0-0-|

|----------------------------------|
|----------------------------------|
|-2-2-2-----4-----------------4----|
|-2-2-2-2-4-2-2-4-2---2-----2-2-2--|
|-0-0-0-4-2---4-2-0-2-0-2-4-2------|
|-----------------4---4-2-0--------|
Tap to rate this tab
 
# A B C D E F G H I J K L M N O P Q R S T U V W X Y Z