Misc Television - Despreocupado Theme tab

La famosa cancion del comercial de Principal Financial Group, la que casi too chile la 
conoce xd

Tono: G ( Despues modulacion hacia A)

|-----------------------------------------------|
|-----------------------------------------------|
|-----------------------------------------------|
|--5---5-----5---5---5---5---5---5--7---7---7---|
|--5---5--2--3---3---3---5---5---5--7---7---7---|
|--3---3--3--------------3---3---3--5---5---5---|

Despues viene la modulacion, se eleva un tono, osea queda en escala de A

|-----------------------------------------------|
|-----------------------------------------------|
|-----------------------------------------------|
|--7---7-----7---7---7---7---7---7--9---9---9---|
|--7---7--4--5---5---5---7---7---7--9---9---9---|
|--5---5--5--------------5---5---5--7---7---7---|

Por ahi termina el comercial xd
Tap to rate this tab
 
# A B C D E F G H I J K L M N O P Q R S T U V W X Y Z