Misc Television - Go Compare Theme tab

Title: Go Compare
Artist: Advertisment
Album: 
Author: Eggmond 


Track 1: Track 1

E|---------------------|---------------------|---------------------------------|------------------|
B|---------------------|---------------------|---------------------------------|------------------|
G|---------------------|---------------------|---------------------------------|------------------|
D|-2-------------------|-2-------------------|-2---------------2---------------|-2----------------|
A|----------3-----3----|----------3-----3----|---------3---3-----------3-------|----------3-----3-|
E|------3--------------|------3--------------|-----3-------3-------3-------3---|------3-----------|


E|--------------------|--------------------|------------------------|-----------------------------|
B|--------------------|--------------------|------------------------|-----------------------------|
G|--------------------|--------------------|------------------------|-------------------------0---|
D|-2------------------|-2------------------|-2----------------------|-----------------2---3-------|
A|-----5---3----------|-----3---5----------|-----5---3----2----0----|-----2---3---5---------------|
E|---------------3----|---------------3----|------------------------|-3---------------------------|


E|--------|--------|
B|--------|--------|
G|--------|--------|
D|--------|--------|
A|--------|--------|
E|--------|--------|
Tap to rate this tab
 
# A B C D E F G H I J K L M N O P Q R S T U V W X Y Z