Song name
# A B C D E F G H I J K L M N O P Q R S T U V W X Y Z

Misc Television - Who Wants To Be A Millionaire Theme tab

My first tab, it's the tune of Who Wants To Be A Millionaire (simplified):

(/) Slide Up (\) Slide Down (h) Hammer On (p) Pull Off (b) Bend (r) Release (v) Vibrato


E|--------------------------------------8-----------8-----10-----|
B|-----8------9------7------8-----8-----------6------------------|
G|--------------------------------------------6-----0-----0------|
D|-----10-----10-----10-----9-----8-----6------------------------|
A|---------------------------------------------------------------|
E|---------------------------------------------------------------|

there also is a brass lead which can be played by guitar:

E|--3---------1--3--4---------4--2-------------5p4--5--5/10--10v--
B|---------4---------------4------------3p2h3---------------------
G|----------------------------------------------------------------
D|----------------------------------------------------------------
A|----------------------------------------------------------------
E|----------------------------------------------------------------
		

E|--11v----10--8--------8--11--11/13--------------8h9-13--13/15v--|
B|-------------------9-----------------------9--------------------|
G|-----------------8-------------------10h12----------------------|
D|----------------------------------------------------------------|
A|----------------------------------------------------------------|
E|----------------------------------------------------------------|


and the bass tab:


E|---------------------------------------------------------------|
B|---------------------------------------------------------------|
G|---------------------------------------------------------------|
D|---------------------------------------------------------------|
A|---------------------------------------------------------------|
E|-----8------8------8------7-----6-----4-----9-----3-----3------|

NB. The bass pattern is:
(triplets)
xxx     x  xxx    x  xxx

-------------------------------------------------------------------------

If you have anything to add, please contact me at shilka.lazo(at)gmail.com
Tap to rate this tab
 
# A B C D E F G H I J K L M N O P Q R S T U V W X Y Z