Song name
# A B C D E F G H I J K L M N O P Q R S T U V W X Y Z

Misc Television - Angel Theme tab

----------------------------------------------------------------------------
			     Angel Theme ( ver 3 ) - Misc Television
----------------------------------------------------------------------------
Tabbed by: n1a1b1
Email: n1a1b1@yahoo.com

Tuning: EADGBE

e|-------------------------------------------------------------------------|
B|-------------------------------------------------------------------------|
G|----------------7--------------------------------------------------------|
D|--------------------10--9-9---7------------------------------------------|
A|------7--9--10-------------------10-10--9-----7----9----10---------------|
E|--------------------------------------------------------------8----------|

e|-------------------------------------------------------------------------|
B|-------------------------------------------------------------------------|
G|----------------7----------------11--12----------------------------------|
D|--------------------10--9-9-----------------10~~10~~10~~-----------------|
A|------7--9--10-----------------------------------------------------------|
E|-------------------------------------------------------------------------|

e|-------------------------------------------------------------------------|
B|-------------------------------------------------------------------------|
G|-------------------------------------------------------------------------|
D|-----------------------------------------------------10-9----------------|
A|----------9--7--9--7--9/10---------9--7--9--10--12-----------------------|
E|------7------------------------7-----------------------------------------|

e|-------------------------------------------------------------------------|
B|-------------------------------------------------------------------------|
G|--------------------7----------------------------------------------------|
D|------9--10--9--7-------9--10-----------7--------------------------------|
A|--------------------------------------------10--9------------------------|
E|-------------------------------------------------------------------------|

e|-------------------------------------------------------------------------|
B|----------------------------------------------------12~~~----------------|
G|----------------7---------------11--12-----------------------------------|
D|--------------------10--9-9-------------10~~10~~10~~---------------------|
A|------7--9--10-----------------------------------------------------------|
E|-------------------------------------------------------------------------|


| /  slide up
| \  slide down
| h  hammer-on
| p  pull-off
| ~  vibrato
| +  harmonic
| x  Mute note
============================================================================
Tap to rate this tab
# A B C D E F G H I J K L M N O P Q R S T U V W X Y Z