Song name
# A B C D E F G H I J K L M N O P Q R S T U V W X Y Z

Misc Television - Jeopardy Theme tab

E------------------------------------------------|
B----11-----------11----------11---11------------|
G-10----10-----10----10----10---10---------------|
D----------8-8-----------------------------------|
A------------------------------------------------|
E------------------------------------------------|

E-11---10---------------------------------------------------|
B---------13-11---------------------------------------------|
G---------------13-11---------------------------------------|
D-----------------------------------------------------------|
A-----------------------------------------------------------|
E-----------------------------------------------------------|
Tap to rate this tab
# A B C D E F G H I J K L M N O P Q R S T U V W X Y Z