Song name
# A B C D E F G H I J K L M N O P Q R S T U V W X Y Z

Misc Television - Peanuts - Linus And Lucy tab

really the lead is a piano, but i tabbed it out as a guitar.
the bass line is pretty easy if you just listen for the timing.

ok you play this for the entire main riff

bass line:
g---------0------0-]
d------------------]
a-------5------5---]
e---3--------3-----]

g------------------]
d-------2------2---]
a-----5------5-----]
e---3------3-------]

the lead is pretty close to the real thing, so just go along with it
and you'll see its ok
0:06
e-----------------------------------------------------------------|
b-----------------------------------------------------------------|
g---13----15-13---13-15-13----15-----13-------13----15-13--13-----|
d-----------------------------------------------------------------|
a-----------------------------------------------------------------|
e-----------------------------------------------------------------|

then this
e-----------------------------------------------------------------|
b---------------------------------------------------11-11---------|
g---13----15-13---13-15-13----15-----13-------13------------------|
d-----------------------------------------------------------------|
a-----------------------------------------------------------------|
e-----------------------------------------------------------------|

e---------------|
b---------11-11-|
g---13----------|
d---------------|
a---------------|
e---------------|

play all of that twice, then at about 0:36 it goes to this riff

e-------------------9h11-11--9h11-11--9h11-11--9h11-11----|
b---------------------------------------------------------|
g------777--9---------------------------------------------|
d------777--9---------------------------------------------|
a------555--7---------------------------------------------|
e-5-------------------------------------------------------|

then it goes back into the main riff

thx
(ps: im the bassist from a band called paradime, so if you've heard of us,
come see us)
Tap to rate this tab
 
# A B C D E F G H I J K L M N O P Q R S T U V W X Y Z