Song name
# A B C D E F G H I J K L M N O P Q R S T U V W X Y Z

Misc Television - Macgyver Theme tab

-----------------------------------------------------------------
The MacGyver Theme!
-----------------------------------------------------------------
Tabbed by: mannis
Email: manasakb@hotmail.com

Tuning: standard

I've tried to make a better tab than the other one posted, so here is my version of the 
(note that is it the short version, not the whole song)
It's fun to learn, so post me a comment and tell me what u think!
Hail MacGuyver! :-)

Intro:		play it twice!

E|-------------|----------------|------------|---10-8-10-8------------|
B|----10-12-10-|---10-12-10-8---|---10-12-10-|-------------12-10------|
G|-------------|----------------|------------|------------------------|  x2
D|--9----------|-9------------9-|-9----------|-9----------------------|
A|-------------|----------------|------------|------------------------|
e|-------------|----------------|------------|------------------------|


Interlude:

|--------------10------------------------|
|-12-12--12-10-----12-12--12-10(hold)----|
|----------------------------------------|
|----------------------------------------|
|----------------------------------------|
|----------------------------------------|


Main melody:

|---------------------------------------|-----------------------12----|
|-13-13-13-13-13-13-13-13-12------------|--13-13-12----12-------------|
|-----------------------------12-14-12--|-----------14----14-12----14-|
|---------------------------------------|-----------------------------|
|---------------------------------------|-----------------------------|
|---------------------------------------|-----------------------------|


|--------------------|-----------------------12---------|
|-13-13-12-----------|--13-13-12----12-------------12---|
|----------12-14-12--|-----------14----14-12----14------|
|--------------------|----------------------------------|
|--------------------|----------------------------------|
|--------------------|----------------------------------|


|-------------------------------------|-12----12-14----15(hold)-----|
|-13-12----13-12----15-13-12-15-13-12-|----15-------12--------------|
|-------14-------14-------------------|-----------------------------|
|-------------------------------------|-----------------------------|
|-------------------------------------|-----------------------------|
|-------------------------------------|-----------------------------|

fast part!
|-15-12----14-10----12-8---10-7---|-8---7---8-7---------------|
|-------12-------10------8------8-|---8---8-----10-8-8-7-8----|
|---------------------------------|---------------------------|
|---------------------------------|---------------------------|
|---------------------------------|---------------------------|
|---------------------------------|---------------------------|


|----------------------------------------|-------------------------12--------|
|-13-13-13-13-13-13-13-13-12-------------|--13-13-12-----12------------------|
|-----------------------------12-14-12---|------------14----14-12------14----|
|----------------------------------------|-----------------------------------|
|----------------------------------------|-----------------------------------|
|----------------------------------------|-----------------------------------|


|----------------------------------------------12--|
|-13-13-12--------------13-13-12-----12------------|
|------------12-14-12-------------14----14-12------|
|--------------------------------------------------|
|--------------------------------------------------|
|--------------------------------------------------|

ending..
|-----------------12--15--15(hold)--|
|-----12--13--15--------------------|
|-14--------------------------------|
|-----------------------------------|
|-----------------------------------|
|-----------------------------------|

 alternative ending (after hold e-15)..
|---------------------------------------------|
|---------------------------------------------|
|---------------------------------------------|
|---------------------------------------------|
|---------------------------------------------|
|--10-10-11-11--8-8--6-6-8-8-5-5---3-3-3-3----|
Tap to rate this tab
 
# A B C D E F G H I J K L M N O P Q R S T U V W X Y Z