Song name
# A B C D E F G H I J K L M N O P Q R S T U V W X Y Z

Misc Television - Bjornes Magasin Theme tab

Theme - Bjornes Magasin.
Tabbed by Azz3.
  
E |-----0------3-----3--3--1--0--1-3-0---------------
B |-------1-3---------------------------3--3--1--0---
G |---------------0-----------0------1-----2-----0-2-
D |---------0-----2-----3--------------------------3-
A |--3-----------------------------------------------
E |--------------------------------------------------


E |-----0------3-------------------------------------
B |-------1-3-----1--3-1-1-0--------1----1--1--0--1--
G |---------------------------2-0-2---0--------------
D |--------------------------------------------------
A |--3------2-----0-------------------------------3--
E |----------------------3----1-------0-----3--------
 
:: Ultimate Guitar Archive :: 
http://www.ultimate-guitar.com 

Tap to rate this tab
# A B C D E F G H I J K L M N O P Q R S T U V W X Y Z