Misc Television - Marks And Spencers Advert Theme tab

 (E A D G B E) - 'Marks and spencers advert'

 4/4
  Gtr I
  E E  E E E   E E   E   E  E E  E E E   E E   E   E   Q  Q Q Q  Q   Q
|-------------------------------------------------------------------------|
|-----------------------------------------------------12-10-8---10/12-----|
|--------7-9/12-7/11/12---------7-9/12-7/11/12----------9-----------------|
|-7-9-10--------------------7-9-10----------------------------------------|
|-------------------------------------------------------------------------|
|-------------------------------------------------------------------------|


   E  E E E  E E E E     E E  E E  E  E E E
|----------------------------------------------|
|-12-10-8---10---------------------------------|
|---------9----9-9-7-----9-7------------9------|
|----------------------------10-9-10-12---7----|
|----------------------------------------------|
|----------------------------------------------|

-------------------------
Tab Legend
/ = slide from to E.g (9/12) means you slide from 9 onto 12
E.g 7 9/12 7/11    means you play 7 9 slide from 9 to 12 play 7 slide from 7 to 11

Tap to rate this tab
 
# A B C D E F G H I J K L M N O P Q R S T U V W X Y Z