Misc Television - Rockys Run Theme tab

Intro:
e|--------------0-------------0-0-0-0-0-0-0-0-0-0-0-0-0-0-0-0-0-0-0-0-0-0-0--|
B|-1-1-1-1-1-1-1-1-1-1-1-1-1--1-1-1-1-1-1-1-1-1-1-1-1-0-0-0-0-0-0-0-0-0-0-0--|
G|---------------------------------------------------------------------------|
D|---------------------------------------------------------------------------|
A|---------------------------------------------------------------------------|
E|---------------------------------------------------------------------------|

e|-0-0-0-0-0-0-0--0--0-0-0-0-0-0-0----------------------------------------------|
B|-0-0-0-0-0-0-0--0--0-0-0-0-0-0-0----------------------------------------------|
G|------------------------------------------------------------------------------|
D|------------------------------------------------------------------------------|
A|------------------------------------------------------------------------------|
E|---------------1-0------------------------------------------------------------|

Melody:
e|--0-3-5--5-7-0--0-3-5--5-7-0-----------0---------------1-0-----------------|
B|------------------------------3-1-3-1-3--1-1-0-----------------------------|
G|------------------------------------------------2-2-0----------------------|
D|---------------------------------------------------------------------------|
A|---------------------------------------------------------------------------|
E|---------------------------------------------------------------------------|


e|--0-3-5--5-7-0--0-3-5--5-7-0-----------0---------------1-0-----------------|
B|------------------------------3-1-3-1-3--1-1-0-----------------------------|
G|------------------------------------------------2-2-0----------------------|
D|---------------------------------------------------------------------------|
A|---------------------------------------------------------------------------|
E|---------------------------------------------------------------------------|

e|--0-3-5--5-7-0--0-3-5--5-7-0-----------0---------------1-0-----------------|
B|------------------------------3-1-3-1-3--1-1-0-----------------------------|
G|------------------------------------------------2-2-0----------------------|
D|---------------------------------------------------------------------------|
A|---------------------------------------------------------------------------|
E|---------------------------------------------------------------------------|

Solo

e|--0-3-5--5-7-0--0-3-5--5-7-0-----------0---------------1-0-------------------|
B|------------------------------3-1-3-1-3--1-1-0-------------------------------|
G|------------------------------------------------2-2-0------------------------|
D|-----------------------------------------------------------------------------|
A|-----------------------------------------------------------------------------|
E|-----------------------------------------------------------------------------|

e|--0-3-5--5-7-0--0-3-5--5-7-0-----------0---------------1-0-------------------|
B|------------------------------3-1-3-1-3--1-1-0-------------------------------|
G|------------------------------------------------2-2-0------------------------|
D|-----------------------------------------------------------------------------|
A|-----------------------------------------------------------------------------|
E|-----------------------------------------------------------------------------|

e|--0-3-5--5-7-0--0-3-5--5-7-12--0-3-5-----------------------------------------|
B|-----------------------------------------------------------------------------|
G|-----------------------------------------------------------------------------|
D|-----------------------------------------------------------------------------|
A|-----------------------------------------------------------------------------|
E|-----------------------------------------------------------------------------|
Tap to rate this tab
 
# A B C D E F G H I J K L M N O P Q R S T U V W X Y Z