Misc Television - King Of Queens Doug And Carrie Theme tab

-------------------------------------------------------------------------------
			     DOUG AND CARRIE - Doug Heffernan
-------------------------------------------------------------------------------


Tuning: Standard


    Doug and Carrie  Doug and Carrie  Doug and Carrie  Doug and Carrie
e|---------------------------------------------------------------------------|
B|---------------------------------------------------------------------------|
G|---------------------------------------------------------------------------|
D|---------------------------------------------------------------------------|
A|---------------------------------------------------------------------------|
E|---0-----0---h3-----0-----0---h3-----0-----0---h3-----0-----0---h3---------|

    Doug and Carrie  Doug and Carrie  Doug and Carrie  Doug and Carrie
e|---------------------------------------------------------------------------|
B|---------------------------------------------------------------------------|
G|---------------------------------------------------------------------------|
D|---------------------------------------------------------------------------|
A|---------------------------------------------------------------------------|
E|---0-----0---h3-----0-----0---h3-----0-----0---h3-----0-----0---h3---------|


    Arthur Arthur  Arthur  Arthur  Arthur  Arthur  Arthur  Arthur
e|---------------------------------------------------------------------------|
B|---------------------------------------------------------------------------|
G|---------------------------------------------------------------------------|
D|--7-7----7-7-----7-7-----7-7-----7-7-----7-7-----7-7-----7-7---------------|
A|--7-7----7-7-----7-7-----7-7-----7-7-----7-7-----7-7-----7-7---------------|
E|--5-5----5-5-----5-5-----5-5-----5-5-----5-5-----5-5-----5-5---------------|

    Doug and Carrie  Doug and Carrie  Doug and Carrie  Doug and Carrie
e|---------------------------------------------------------------------------|
B|---------------------------------------------------------------------------|
G|---------------------------------------------------------------------------|
D|---------------------------------------------------------------------------|
A|---------------------------------------------------------------------------|
E|---0-----0---h3-----0-----0---h3-----0-----0---h3-----0-----0---h3---------|

************************************

| /   slide up
| \   slide down
| h   hammer-on
| p   pull-off
| ~   vibrato
| +   harmonic
| x   Mute note
| b   Bend
| pb  Pre-bend
| br  Bend release
| pbr Pre-bend release
| brb Bend release bend

************************************
Tap to rate this tab
 
# A B C D E F G H I J K L M N O P Q R S T U V W X Y Z