Song name
# A B C D E F G H I J K L M N O P Q R S T U V W X Y Z

Misc Television - Angel Theme tab

      Artist: Darling Violetta
  Song Title: Sanctuary
  Show Theme: Angel
   Tabbed By: Cinthia G



[Some of the lower bass notes may not be played at the same time as the higher notes. 
Play whatever feels right to you and enjoy!]


( ) = Optional


e|-------------------------------------------|
B|------------3--1--0------------------------|
G|---------0-----------2--0-----------0------|
D|---2--4--------------------4--2--4---------|
A|------------------------2-----3--2--0---3--|
E|---0--------2-----3---------------------3--|


e|---------------------2--3------------|
B|------------3--1--0--------1--1------|
G|---------0---------------------------|
D|---2--4------------------------------|
A|---------------------2--3--2--0------|
E|---0--------2-----3--------------3---|


e|-------------------------|----------------------------|
B|-------------------------|----------------------------|
G|----------------------0--|----------------0--2--5--4--|
D|-------4--2--4--2--4-----|-------4--2--4--------------|
A|----2--3-----2-----0-----|----2--3-----2--------------|
E|--0----------------------|--0----------------2--------|


e|----------------------------------|
B|--------------3--1--0-------------|
G|--4--5--4--2-------------2--0-----|
D|-------------------------------4--|
A|----------------------------------|
E|--0--------2--------3-------2-----|


e|--------------------2--3-------------|--3--2--0------------------|
B|-----------3--1--0--------1--1-------|--5--3--1---3--1--0--------|
G|--------0----------------------------|------------4--2--0--2--0--|
D|--2--4----------------------------4--|-(2)-----------------4--2--|
A|--------------------2--0--2--3-------|---------------------------|
E|--0--------2-----3-------------------|--0[let ring-------------]-|
Tap to rate this tab
 
# A B C D E F G H I J K L M N O P Q R S T U V W X Y Z