Song name
# A B C D E F G H I J K L M N O P Q R S T U V W X Y Z

Misc Television - Family Guy Theme tab

Family Guy Theme Song
Tabbed by TScala
Capo 5th fret
**********************

    It seems today that all you see, is violence in movies and sex
e|------3----2--3--------2----1--2------1-0--1----0--1--3---1---0-----|
B|------------------1----------------1--------------------------------|
G|--0-----------------------------------------------------------------|
D|--------------------------------------------------------------------|
A|--------------------------------------------------------------------|
E|--------------------------------------------------------------------|

   On T.V.  But where are those good ol' fashion values, on which we
e|-0--0-0---------------------------------0--0----1--0--------0---5---|
B|-----------1----3----3----1----4---1--------------------3-----------|
G|--------------------------------------------------------------------|
D|--------------------------------------------------------------------|
A|--------------------------------------------------------------------|
E|--------------------------------------------------------------------|

   Used to rely? Lucky there's a family guy! Lucky there's a man who
e|---0-------3----5-5----5-----5--8-5-5--3----1-1----1-----1--1---3---|
B|------3--1----------------------------------------------------------|
G|--------------------------------------------------------------------|
D|--------------------------------------------------------------------|
A|--------------------------------------------------------------------|
E|--------------------------------------------------------------------|

   Positively can do, all the things that make us laugh and cry!
e|--0-0-0-0----0--1-----------------------------0--------0---5--------|
B|---------------------3---3----3------3----3-------1-----------------|
G|--------------------------------------------------------------------|
D|--------------------------------------------------------------------|
A|--------------------------------------------------------------------|
E|--------------------------------------------------------------------|

   He's a family guy!  
e|--3---3--5--7---8--------3--0--3-5-3-5---8--------------------------|
B|-----------------------------------------------1--------------------|
G|--------------------------------------------------------------------|
D|--------------------------------------------------------------------|
A|--------------------------------------------------------------------|
E|--------------------------------------------------------------------|

Questions/Corrections? Email me at tscala2010@live.ca
Enjoy!
Tap to rate this tab
 
# A B C D E F G H I J K L M N O P Q R S T U V W X Y Z