Song name
# A B C D E F G H I J K L M N O P Q R S T U V W X Y Z

Misc Television - Its Always Sunny In Philadelphia - Day Man tab

----------------------------------------------------------------------------
		Day Man - Electric Dream Machine (Charlie and Dennis)
----------------------------------------------------------------------------
Tabbed by: Tom
Email: fraynio@hotmail.com

From It's Always Sunny in Philadelphia, "Sweet Dee's dating a retarted person" & "The 
Nightman Cometh"
This is Day man [(aaaAAAaaah!)] by the elite musical duo Electric Dream Machine (Dennis 
and Charlie).
I like to play this with arpeggio's rather than just strumming chords as it sounds more 
like the way Charlie plays it on his keyboard in the version below.

http://www.youtube.com/watch?v=0V784AiYtG8
this is the version I tabbed, seems more complete than any of the ones in the short

Tuning: Standard

intro (loads of chorus)
e|------1-------------------------------0------------|
B|---------------------------------------------------|
G|----2-----------------------------------2----------|
D|--0--------------------------------------2---------|
A|---------------------------------------------------|
E|---------------------------------------------------|
       "They took you nightman and you dont belong to them"

e|-1-------------------------------------------------|
B|-1-------------------------------------------------|
G|-2-------------------------------------------------|
D|(3)----------------------------2-------------------|
A|---------------------------------------------------|
E|---------------------------------------------------|
   "They locked me in a world of darkness without your sexy hands"

e|-----------------------------------------|
B|-----------------------------------------|
G|--------1--------------------------------|
D|--------0--------------------------------|
A|-----------------------------------------|
E|-----------------------------------------|
   "And i miss you nightman, so baaaaaaaaaaad"

*drum beat*

   D
e|---------------|
B|-7-----------7-|
G|---7----7------| x4
D|-----7----7----|
A|---------------|
E|---------------|
   "Day man! aaaaAAAAaaaah! Fighter of the

   C
e|---------------|
B|-5-----------5-|
G|---5----5------| x4
D|-----5----5----|
A|---------------|
E|---------------|
  Night Man! aaaaAAAAaaaah! Champion of the

  F
e|---------------|
B|-10----------10|
G|---10---10-----| x4
D|-----10---10---|
A|---------------|
E|---------------|
Sun! aaaaAAAAaaaah! You're a master of

  G
e|---------------|
B|-12----------12|
G|---12---12-----| x4
D|-----12---12---|
A|---------------|
E|---------------|
Karate and friendship for everyone!

sounds great with chords under this

Best song ever written, enjoy!
any corrections email me
Tap to rate this tab
 
# A B C D E F G H I J K L M N O P Q R S T U V W X Y Z