Misc Television - Reno 911 Theme tab

RENO 911 THEME
Guitars Tuned to Eb (Eb Ab Db Gb Bb Eb)

Drums begin song with snare roll.

Guitar 1:
|-----------------|-----------------|
|o----------------|----------------o|
|-----------------|-----------------|
|-----------------|-----------------|
|o----------------|-----------3----o|
|-5-5-5-3-5-5-5-3-|-5-5-5-3-5---5-3-|
This line is played throughout song, with bass playing the same thing.

After the first two times the above line is played,
Guitar 2 (w/ slide) comes in with this:
|-------x/|=17--(17)\---|--------------|-----------|
|o------x/|=17--(17)\---|--------------|----------o|
|-------x/|=17--(17)\---|------12-(12)/|=14--------|Play 3 times
|---------|-------------|-12-------12-/|=14--------|
|o--------|-------------|--------------|----------o|
|---------|-------------|--------------|-----------|
NOTE: The 2nd time, dont let the twelfth fret(G) of G string ring or slide to
Fourteenth fret(A) of G string.

|-----------------|-----------------|--------|---------|
|-10----12----13--|-15----13----12--|-10-----|-(10)----|
|-----------------|-----------------|--------|---------|
|-7-----9-----10--|-12----10----9---|-7------|-(7)-----|
|-----------------|-----------------|--------|---------|
|-----------------|-----------------|--------|---------|

This next line is actually a small choir, but I thought Id include it.
|-------------|--------------|------------|------------|------|--------|
|-------------|--------------|------------|------------|------|--------|
|-------------|--------------|------------|------------|------|--------|
|-7---9---10--|-12---10---9--|-7---9---7--|-5---2---5--|-5----|-(5)----|
|-------------|--------------|------------|------------|------|--------|
|-5---7---8---|-10---8----7--|-5---7---5--|-3---0---3--|-3----|-(3)----|

Very last line, which starts on the last measure of the above line:
|---------------------|------|-----5---|-(5)------*||
|---------------------|------|----5----|-(5)------*||
|---------------------|------|---5-----|-(5)------*||
|---------------------|------|--7------|-(7)------*||
|---------------------|------|---------|-(0)------*||
|-12\10-10\8-8\7-7\5\-|-0----|---------|----------*||
NOTE: That low A ringing into the last measure is a reaction note.
Meaning that because you played another A, the vibrations of it caused the lower A 
to vibrate as well.
Tap to rate this tab
 
# A B C D E F G H I J K L M N O P Q R S T U V W X Y Z