Guitaretab - guitar tabs
Song name
# A B C D E F G H I J K L M N O P Q R S T U V W X Y Z

Misc Television - Monty Phyton - Lumberjack tab

Monthy Phyton
This is a cool song, I might be doing
"alway's look on the bright side of life' soon also.
I think it has transcribed quite good
 
 G                     C           D                    G

3-----5h7p5--3----2---0--00--0--2---2-----0----2---3---3---3
3------------3--------1--11--1--3---3-----1----1---3---3---3
4------------4--------0--00--0--2---2-----0----2---4---4---4
5------------5--------2--22--2--0---0-----2----0---5---5---5
5------------5-------------------------------------5---5---5
3------------3-------------------------------------3---3---3
I'm a lumberjack and i'm ok.I sleep all night and work all day          

     G                 C            Dsus4  D              G
[ Tab from: http://www.guitaretab.com/m/misc-television/29058.html ]
----3---3----7-----3--0----0----5------3p-2----2----7---5--3
----3---3----8-----3--1----1-----------3-------3----7---5--3
----4---4----7-----4--0----0----5------2-------2----7---5--4
0---5---5----9-----5--2----2----4------0-------0----9---7--5
----5---5----------5--------------------------------9---7--5
----3---3----------3--------------------------------7---5--3
 I  cut down trees, I wear high heels, sus-pen-ders and a bra 


 I do not know if the words are correct and i don't know them all,
 but this Rhythm continues all the way through the song.

 Please send comments/suggestions to my above e-mail address
       _
 .'._.'_)__________||||||               
<     ||||||||||||| ___ _) 
 '._.'._)'   '
  /_  
    \  _p_ 
     \
    //|
   |||_______
   |____|/ 
Related for Monty Phyton - Lumberjack tab