Song name
# A B C D E F G H I J K L M N O P Q R S T U V W X Y Z

Misc Television - How I Met Your Mother Theme tab

e|-3-3-3-3-3-3-3-3-|-0-0-0-0-0-0-0-0-|-5-------5-7---5-|-------0-2---0---|
B|-3-3-3-3-3-3-3-3-|-0-0-0-0-0-0-0-0-|-------5---------|-----------------|
G|-4-4-4-4-4-4-4-4-|-1-1-1-1-1-1-1-1-|-------------6---|-----------------|
D|-5-5-5-5-5-5-5-5-|-2-2-2-2-2-2-2-2-|-----7-----6---4-|-----4-------2---|
A|-5-5-5-5-5-5-5-5-|-2-2-2-2-2-2-2-2-|---7---7-4-------|---4---4---2---2-|
E|-3-3-3-3-3-3-3-3-|-0-0-0-0-0-0-0-0-|-5---------------|-2-------0-------|

e|-----------------|-----------------|---------5-7---5-|-------0-2---0---|
B|-------0---------|-2---------------|-------5---------|-----------------|
G|---------6---6-7-|---4-2-4-6-4-----|-------------6---|-----------------|
D|-7---------6---6-|---4---4-----7-7-|-----7-----6---4-|-----4-------2---|
A|-5---5---4-------|-2---2-----5-7---|---7---7-4-------|---4---4---2---2-|
E|---5---5---------|---------3-----5-|-5---------------|-2-------0-------|

e|-----------------|---------------5-|
B|-------0---------|-2-------------5-|
G|---------6---6-7-|---4-2-4-6-4---6-|
D|-7---------6---6-|---4---4-----7-7-|
A|-5---5---4-------|-2---2-----5-7-7-|
E|---5---5---------|---------3-----5-|
Tap to rate this tab
# A B C D E F G H I J K L M N O P Q R S T U V W X Y Z