Song name
# A B C D E F G H I J K L M N O P Q R S T U V W X Y Z

Misc Television - Coca Cola Theme tab

tabbed by: JesseLaceyIsGod
 ilikesubs123@aol.com

tuning: eBGDAE(Standard)

e|-----------------------------------------------------------------------|
B|-----------------------------------------------------------------------|
G|-----------------------------------------------------------------------|
D|-----------------------------------------0-------------------2-0-0-0---|
A|---2-2-2-3-3-2-0-0---2---2-2-2-3-3-2-0-0---2-----2-2-2-3-3-2---------2-|
E|-3-----------------3---3---------------------3-3-----------------------|

-----------------------|
-----------------------|
-----------------------|
-----------------0-----|
---2-2-3-3-2-0-0---2---|
-3-------------------3-|


that's it.
simple :]
Tap to rate this tab
# A B C D E F G H I J K L M N O P Q R S T U V W X Y Z