Song name
# A B C D E F G H I J K L M N O P Q R S T U V W X Y Z

Misc Television - The Scarn tab

First Tab

Tuning - CGCFAD

Intro / Whole Song

D ------------------------------ |
A ------------------------------ |
F -----------------------7-5---- |
C -------2-3-2--0----7-9-------- |
G --0---3-----3----------------- |
C ------------------------------ |

D ------------------------------ |
A ------------------------------ |
F -----------------------7-5---- |
C -------2-3-2--0----7-9-------- |
G --0---3-----3----------------- |
C ------------------------------ |

Tap to rate this tab
 
# A B C D E F G H I J K L M N O P Q R S T U V W X Y Z