Song name
# A B C D E F G H I J K L M N O P Q R S T U V W X Y Z

Misc Television - Thunderbirds Theme tab

Theme Tune: Thunderbirds
Composed by Barry Gray

Barry Gray also wrote the theme tunes to Supercar, Fireball XL5, Stingray, Captain 
Scarlet & The Mysterons, Joe 90, UFO and Space 1999.
If John Williams was long associated with Steven Spielberg, that would be the same for 
Barry Gray and Gerry Anderson.

|-------------------|---------------|-------------------|---------------|
|-------------------|----5-----5----|-------------------|----5-----5-7--|
|-------------------|-7----4-7------|-------------------|-7----4-7------|
|-5----5-7------5-7-|------------7--|-5----5-7------5-7-|---------------|
|----7------5-7-----|---------------|----7------5-7-----|---------------|
|-------------------|---------------|-------------------|---------------|

|----4--------------|-------------|-------------------|----------|
|-7----4-7--4-------|--------4----|-3--5---3----------|----------|
|-------------6-4-3-|----3-4---6--|------4---4--2-----|--------2-|
|-------------------|-6-----------|---------------5-4-|-2--4-5---|
|-------------------|-------------|-------------------|----------|
|-------------------|-------------|-------------------|----------|

|-------------------|---------------|-------------------|---------------|
|-------------------|----5-----5----|-------------------|----5-----5-8--|
|-------------------|-7----4-7------|-------------------|-7----4-7------|
|-5----5-7------5-7-|------------7--|-5----5-7------5-7-|---------------|
|----7------5-7-----|---------------|----7------5-7-----|---------------|
|-------------------|---------------|-------------------|---------------|

|--------5--5-----|-----------|--------5--------5-|-6----6-8--6-8-|
|-8--5-8-------8--|-6----6-8--|-8--5-8------5-8---|----8----------|
|-----------------|----7------|-----------7-------|---------------|
|-----------------|-----------|-------------------|---------------|
|-----------------|-----------|-------------------|---------------|
|-----------------|-----------|-------------------|---------------|

|-10-10--10--10--10-|-10------------|
|-------------------|---------------|
|-------------------|---------------|
|-------------------|---------------|
|-------------------|---------------|
|-------------------|---------------| then, a quick drum roll

|-9-----9-11-------9-11-|-12-12-12--14-|-16----------------|
|----11------11-12------|--------------|-------------------|
|-----------------------|--------------|-------------------|
|-----------------------|--------------|-------------------|
|-----------------------|--------------|-------------------|
|-----------------------|--------------|-------------------|
Tap to rate this tab
# A B C D E F G H I J K L M N O P Q R S T U V W X Y Z