Song name
# A B C D E F G H I J K L M N O P Q R S T U V W X Y Z

Misc Television - The Addams Family tab

    1        2        3        4        1        2        3        4
e|--------------------x--------x--------------------------x--------x--|
B|--------------------x--------x--------------------------x--------x--|
G|--------------------x--------x--------------------------x--------x--|
D|--------------------x--------x--------------------------x--------x--|
A|--------0--1--------x--------x-----------0--2--3--------x--------x--|
E|--1--3--------------x--------x--------3-----------------x--------x--|

    1        2        3        4        1        2        3        4
e|--------------------------------------------------------x--------x--|
B|--------------------------------------------------------x--------x--|
G|--------------------------------------------------------x--------x--|
D|--------------------------------------------------------x--------x--|
A|-----0--2--3-----------0--2--3--------------0--1--------x--------x--|
E|--3-----------------3-----------------1--3--------------x--------x--|

    1        2        3        4        1        2        3        4
e|--------------------x--------x--------------------------x--------x--|
B|--------------------x--------x--------------------------x--------x--|
G|--------------------x--------x--------------------------x--------x--|
D|--------------------x--------x--------------------------x--------x--|
A|--------0--1--------x--------x-----------0--2--3--------x--------x--|
E|--1--3--------------x--------x--------3-----------------x--------x--|

    1        2        3        4        1        2        3        4
e|--------------------------------------------------------x--------x--|
B|--------------------------------------------------------x--------x--|
G|--------------------------------------------------------x--------x--|
D|--------------------------------------------------------x--------x--|
A|-----0--2--3-----------0--2--3--------------0--1--------x--------x--|
E|--3-----------------3-----------------1--3--------------x--------x--|

then when the lyrics start play this:

e|--------------------------------------------------------------------|
B|--------------------------------------------------------------------|
G|--------4-------2----------2----------------------------------------|
D|------5----5-2--------5-4----4-------5------------------------------|
A|---5-----------3---------------5--2---------------------------------|
E|--------------------------------------------------------------------|


e|--------------------------------------------------------------------|
B|--------------------------------------------------------------------|
G|---------4----------------------------------------------------------|
D|------5----5-2-2-----5--4------2--4--5------------------------------|
A|---5----------3------------5----------------------------------------|
E|--------------------------------------------------------------------|

REPEAT THE ABOVE PART

That's it. It's very easy and if you need a video tutorial, i have one on my Youtube 
channel: http://www.youtube.com/user/TheMedinaProject
Tap to rate this tab
# A B C D E F G H I J K L M N O P Q R S T U V W X Y Z