Song name
# A B C D E F G H I J K L M N O P Q R S T U V W X Y Z

Misc Television - Brainiac Science Abuse Theme tab


e|------------------------------------------------------------|
B|--------------------------------------------12-12---12-12---|
G|----------------2---------------------------12-12---12-12---|
D|--12\4-4--2---4-2--4-4-2-4-2-----4-4--2-----12-12---12-12---|
A|--12\4-4--2-4-4----4-4-2-4-2-4---4-4--2-4-------------------|
E|------------4----------------4----------4-------------------|

Repeat x3

On second repeat (and afterwards), another guitar joins by doing
this note (First note comes in at fourth note on tab above)

e|------------------------------------------------------------|
B|------------------------------------------------------------|
G|---12b---12b-12b--12b--------------12b---12b-12b--12b-------|
D|---12b---12b-12b--12b--------------12b---12b-12b--12b-------|
A|------------------------------------------------------------|
E|------------------------------------------------------------|
  (not in proportion)

Ending (as far as I can work out):

e|------------------------------------------------------------|
B|------------------------------------------------------------|
G|------------------------------------------------------------|
D|------------------------------------------------------------|
A|---0-2-3-2-0-2---0-2-3-2-0-2--------------------------------|
E|---0-2-3-2-0-2---0-2-3-2-0-2--------------------------------|

Listen to the song (it's on Youtube) for your timings, how to judge bend etc.

Enjoy!
Tap to rate this tab
 
# A B C D E F G H I J K L M N O P Q R S T U V W X Y Z