Song name
# A B C D E F G H I J K L M N O P Q R S T U V W X Y Z

Misc Television - Fun House Uk Theme tab

Funhouse UK Theme.

-----------------------------------------------|
-----------------------------------------------|
----8--10-10-10-8-10-10-10-8-------------------|
--9--------------------------10-9-7-5-4-2-4-0--|
-----------------------------------------------|
-----------------------------------------------|

-----------------------------------------------|
-----------------------------------------------|
----8--10-10-10-8-10-10-10-8-------------------|
--9--------------------------10-9-7-5-4-2-0----|
-----------------------------------------------|
-----------------------------------------------|

-----------------------------------------------|
-----------------------------------------------|
--2--4--5--4--2--2--4--5--7--------------------|
--0--2--3--2--0--0--2--3--5--------------------|
-----------------------------------------------|

-----------------------------------------------|
-----------------------------------------------|
----8--10-10-10-8-10-10-10-8-------------------|
--9--------------------------------------------|
-----------------------------------------------|
-----------------------------------------------|

Pat Sharp - "And here's the Funhouse!"

-----------------------------------------------|
-----------------------------------------------|
----8--10-10-10-8-10-10-10-8--12-13-END--------|
--9---------------------------11-12------------|
-----------------------------------------------|
-----------------------------------------------|

Fluoxetine.
Tap to rate this tab
 
# A B C D E F G H I J K L M N O P Q R S T U V W X Y Z