Song name
# A B C D E F G H I J K L M N O P Q R S T U V W X Y Z

Misc Television - Star Trek The Next Generation Theme tab

Put together by ear with a little tweak from two different tabs as no version
exists with the "Space the final frontier" bit.


e|--17~~~~~-12~~~~~-15~~~~~-7~~~~~--     e|--5~~~~~-0~~~~~-3~~~~~---------|
B|----------------------------------     B|-----------------------0~~~~~--|
G|---------------------------------- or  G|-------------------------------|
D|----------------------------------     D|-------------------------------|
A|----------------------------------     A|-------------------------------|
E|----------------------------------     E|-------------------------------|


e|-------3~~~-2-----0-5~~~~-5-9~~~--|
B|-----3--------3-0-----------------|
G|--2-------------------------------|
D|----------------------------------|
A|----------------------------------|
E|----------------------------------|


e|-------2-7~~~~~-6~~-2~~-----4~~-9~~~-9-9-13~~~~--|
B|-2~~~~------------------4~~----------------------|
G|-------------------------------------------------|
D|-------------------------------------------------|
A|-------------------------------------------------|
E|-------------------------------------------------|

e-------0-------5-3----1-3-5-1-3--1--0--0---0--------|
B-----1----3------------------------------1---3------|
G-0--------3--3-----3--------------------------------|
D----------------------------------------------------|
A----------------------------------------------------|
E----------------------------------------------------|
Tap to rate this tab
 
# A B C D E F G H I J K L M N O P Q R S T U V W X Y Z