Song name
# A B C D E F G H I J K L M N O P Q R S T U V W X Y Z

Misc Television - Sherlock Bbc Theme tab

------------------
Sherlock BBC Theme
------------------

Tabbed by: Eric Acosta


  Am           D            Dm          Am
E|-------3-----2-----------|-1-----1-----0-----------|
B|-1---------------3-------|-------------------------|
G|-------------------------|-------------------------|
D|-------------------------|-------------------------|
A|-------------------------|-------------------------|
E|-------------------------|-------------------------|


  Am           D              Dm             Am
E|-------0-------------------|-------------------------|
B|-1-----------3-------------|-------------------------|
G|----------------2------2-4-|-5----7-4----5-2---------|
D|---------------------------|-------------------------|
A|---------------------------|-------------------------|
E|---------------------------|-------------------------|
Tap to rate this tab
# A B C D E F G H I J K L M N O P Q R S T U V W X Y Z